0
SECTION
2
ENTITIES
0
LINE
8
0
10
104.7875
20
-89.2875
11
104.7875
21
-91.6875
0
LINE
8
0
10
104.7875
20
-91.6875
11
102.3875
21
-91.6875
0
LINE
8
0
10
102.3875
20
-91.6875
11
102.3875
21
-89.2875
0
LINE
8
0
10
102.3875
20
-89.2875
11
104.7875
21
-89.2875
0
LINE
8
0
10
116.8875
20
-89.2875
11
116.8875
21
-91.6875
0
LINE
8
0
10
116.8875
20
-91.6875
11
114.4875
21
-91.6875
0
LINE
8
0
10
114.4875
20
-91.6875
11
114.4875
21
-89.2875
0
LINE
8
0
10
114.4875
20
-89.2875
11
116.8875
21
-89.2875
0
CIRCLE
8
0
10
109.6375
20
-90.4875
40
3.15
0
LINE
8
0
10
103.4875
20
-94.3875
11
103.4875
21
-99.4875
0
LINE
8
0
10
103.4875
20
-99.4875
11
100.8875
21
-99.4875
0
LINE
8
0
10
100.8875
20
-99.4875
11
100.8875
21
-94.3875
0
LINE
8
0
10
100.8875
20
-94.3875
11
103.4875
21
-94.3875
0
LINE
8
0
10
191.7875
20
-94.3875
11
191.7875
21
-99.4875
0
LINE
8
0
10
191.7875
20
-99.4875
11
194.3875
21
-99.4875
0
LINE
8
0
10
194.3875
20
-99.4875
11
194.3875
21
-94.3875
0
LINE
8
0
10
194.3875
20
-94.3875
11
191.7875
21
-94.3875
0
LINE
8
0
10
155.3875
20
-84.0875
11
139.8875
21
-84.0875
0
LINE
8
0
10
139.8875
20
-84.0875
11
139.8875
21
-96.8875
0
LINE
8
0
10
139.8875
20
-96.8875
11
155.3875
21
-96.8875
0
LINE
8
0
10
155.3875
20
-96.8875
11
155.3875
21
-84.0875
0
LINE
8
0
10
256.28125
20
-56.2875
11
256.28125
21
-61.3875
0
LINE
8
0
10
256.28125
20
-61.3875
11
253.68125
21
-61.3875
0
LINE
8
0
10
253.68125
20
-61.3875
11
253.68125
21
-56.2875
0
LINE
8
0
10
253.68125
20
-56.2875
11
256.28125
21
-56.2875
0
LINE
8
0
10
281.88125
20
-56.2875
11
281.88125
21
-61.3875
0
LINE
8
0
10
281.88125
20
-61.3875
11
284.48125
21
-61.3875
0
LINE
8
0
10
284.48125
20
-61.3875
11
284.48125
21
-56.2875
0
LINE
8
0
10
284.48125
20
-56.2875
11
281.88125
21
-56.2875
0
LINE
8
0
10
276.83125
20
-45.9875
11
261.33125
21
-45.9875
0
LINE
8
0
10
261.33125
20
-45.9875
11
261.33125
21
-58.7875
0
LINE
8
0
10
261.33125
20
-58.7875
11
276.83125
21
-58.7875
0
LINE
8
0
10
276.83125
20
-58.7875
11
276.83125
21
-45.9875
0
LINE
8
0
10
258.6625
20
-18.1875
11
258.6625
21
-23.2875
0
LINE
8
0
10
258.6625
20
-23.2875
11
256.0625
21
-23.2875
0
LINE
8
0
10
256.0625
20
-23.2875
11
256.0625
21
-18.1875
0
LINE
8
0
10
256.0625
20
-18.1875
11
258.6625
21
-18.1875
0
LINE
8
0
10
284.2625
20
-18.1875
11
284.2625
21
-23.2875
0
LINE
8
0
10
284.2625
20
-23.2875
11
286.8625
21
-23.2875
0
LINE
8
0
10
286.8625
20
-23.2875
11
286.8625
21
-18.1875
0
LINE
8
0
10
286.8625
20
-18.1875
11
284.2625
21
-18.1875
0
LINE
8
0
10
279.2125
20
-7.8875
11
263.7125
21
-7.8875
0
LINE
8
0
10
263.7125
20
-7.8875
11
263.7125
21
-20.6875
0
LINE
8
0
10
263.7125
20
-20.6875
11
279.2125
21
-20.6875
0
LINE
8
0
10
279.2125
20
-20.6875
11
279.2125
21
-7.8875
0
LINE
8
0
10
13.39375
20
-75.3375
11
13.39375
21
-80.4375
0
LINE
8
0
10
13.39375
20
-80.4375
11
10.79375
21
-80.4375
0
LINE
8
0
10
10.79375
20
-80.4375
11
10.79375
21
-75.3375
0
LINE
8
0
10
10.79375
20
-75.3375
11
13.39375
21
-75.3375
0
LINE
8
0
10
38.99375
20
-75.3375
11
38.99375
21
-80.4375
0
LINE
8
0
10
38.99375
20
-80.4375
11
41.59375
21
-80.4375
0
LINE
8
0
10
41.59375
20
-80.4375
11
41.59375
21
-75.3375
0
LINE
8
0
10
41.59375
20
-75.3375
11
38.99375
21
-75.3375
0
LINE
8
0
10
33.94375
20
-65.0375
11
18.44375
21
-65.0375
0
LINE
8
0
10
18.44375
20
-65.0375
11
18.44375
21
-77.8375
0
LINE
8
0
10
18.44375
20
-77.8375
11
33.94375
21
-77.8375
0
LINE
8
0
10
33.94375
20
-77.8375
11
33.94375
21
-65.0375
0
LINE
8
0
10
193.4875
20
-7.8875
11
177.9875
21
-7.8875
0
LINE
8
0
10
177.9875
20
-7.8875
11
177.9875
21
-20.6875
0
LINE
8
0
10
177.9875
20
-20.6875
11
193.4875
21
-20.6875
0
LINE
8
0
10
193.4875
20
-20.6875
11
193.4875
21
-7.8875
0
LINE
8
0
10
174.4375
20
-7.8875
11
158.9375
21
-7.8875
0
LINE
8
0
10
158.9375
20
-7.8875
11
158.9375
21
-20.6875
0
LINE
8
0
10
158.9375
20
-20.6875
11
174.4375
21
-20.6875
0
LINE
8
0
10
174.4375
20
-20.6875
11
174.4375
21
-7.8875
0
LINE
8
0
10
183.9625
20
-26.9375
11
168.4625
21
-26.9375
0
LINE
8
0
10
168.4625
20
-26.9375
11
168.4625
21
-39.7375
0
LINE
8
0
10
168.4625
20
-39.7375
11
183.9625
21
-39.7375
0
LINE
8
0
10
183.9625
20
-39.7375
11
183.9625
21
-26.9375
0
LINE
8
0
10
169.675
20
-45.9875
11
154.175
21
-45.9875
0
LINE
8
0
10
154.175
20
-45.9875
11
154.175
21
-58.7875
0
LINE
8
0
10
154.175
20
-58.7875
11
169.675
21
-58.7875
0
LINE
8
0
10
169.675
20
-58.7875
11
169.675
21
-45.9875
0
LINE
8
0
10
150.625
20
-45.9875
11
135.125
21
-45.9875
0
LINE
8
0
10
135.125
20
-45.9875
11
135.125
21
-58.7875
0
LINE
8
0
10
135.125
20
-58.7875
11
150.625
21
-58.7875
0
LINE
8
0
10
150.625
20
-58.7875
11
150.625
21
-45.9875
0
LINE
8
0
10
160.15
20
-65.0375
11
144.65
21
-65.0375
0
LINE
8
0
10
144.65
20
-65.0375
11
144.65
21
-77.8375
0
LINE
8
0
10
144.65
20
-77.8375
11
160.15
21
-77.8375
0
LINE
8
0
10
160.15
20
-77.8375
11
160.15
21
-65.0375
0
LINE
8
0
10
141.1
20
-65.0375
11
125.6
21
-65.0375
0
LINE
8
0
10
125.6
20
-65.0375
11
125.6
21
-77.8375
0
LINE
8
0
10
125.6
20
-77.8375
11
141.1
21
-77.8375
0
LINE
8
0
10
141.1
20
-77.8375
11
141.1
21
-65.0375
0
LINE
8
0
10
155.3875
20
-7.8875
11
139.8875
21
-7.8875
0
LINE
8
0
10
139.8875
20
-7.8875
11
139.8875
21
-20.6875
0
LINE
8
0
10
139.8875
20
-20.6875
11
155.3875
21
-20.6875
0
LINE
8
0
10
155.3875
20
-20.6875
11
155.3875
21
-7.8875
0
LINE
8
0
10
136.3375
20
-7.8875
11
120.8375
21
-7.8875
0
LINE
8
0
10
120.8375
20
-7.8875
11
120.8375
21
-20.6875
0
LINE
8
0
10
120.8375
20
-20.6875
11
136.3375
21
-20.6875
0
LINE
8
0
10
136.3375
20
-20.6875
11
136.3375
21
-7.8875
0
LINE
8
0
10
164.9125
20
-26.9375
11
149.4125
21
-26.9375
0
LINE
8
0
10
149.4125
20
-26.9375
11
149.4125
21
-39.7375
0
LINE
8
0
10
149.4125
20
-39.7375
11
164.9125
21
-39.7375
0
LINE
8
0
10
164.9125
20
-39.7375
11
164.9125
21
-26.9375
0
LINE
8
0
10
145.8625
20
-26.9375
11
130.3625
21
-26.9375
0
LINE
8
0
10
130.3625
20
-26.9375
11
130.3625
21
-39.7375
0
LINE
8
0
10
130.3625
20
-39.7375
11
145.8625
21
-39.7375
0
LINE
8
0
10
145.8625
20
-39.7375
11
145.8625
21
-26.9375
0
LINE
8
0
10
131.575
20
-45.9875
11
116.075
21
-45.9875
0
LINE
8
0
10
116.075
20
-45.9875
11
116.075
21
-58.7875
0
LINE
8
0
10
116.075
20
-58.7875
11
131.575
21
-58.7875
0
LINE
8
0
10
131.575
20
-58.7875
11
131.575
21
-45.9875
0
LINE
8
0
10
122.05
20
-65.0375
11
106.55
21
-65.0375
0
LINE
8
0
10
106.55
20
-65.0375
11
106.55
21
-77.8375
0
LINE
8
0
10
106.55
20
-77.8375
11
122.05
21
-77.8375
0
LINE
8
0
10
122.05
20
-77.8375
11
122.05
21
-65.0375
0
LINE
8
0
10
103.0
20
-65.0375
11
87.5
21
-65.0375
0
LINE
8
0
10
87.5
20
-65.0375
11
87.5
21
-77.8375
0
LINE
8
0
10
87.5
20
-77.8375
11
103.0
21
-77.8375
0
LINE
8
0
10
103.0
20
-77.8375
11
103.0
21
-65.0375
0
LINE
8
0
10
117.2875
20
-7.8875
11
101.7875
21
-7.8875
0
LINE
8
0
10
101.7875
20
-7.8875
11
101.7875
21
-20.6875
0
LINE
8
0
10
101.7875
20
-20.6875
11
117.2875
21
-20.6875
0
LINE
8
0
10
117.2875
20
-20.6875
11
117.2875
21
-7.8875
0
LINE
8
0
10
98.2375
20
-7.8875
11
82.7375
21
-7.8875
0
LINE
8
0
10
82.7375
20
-7.8875
11
82.7375
21
-20.6875
0
LINE
8
0
10
82.7375
20
-20.6875
11
98.2375
21
-20.6875
0
LINE
8
0
10
98.2375
20
-20.6875
11
98.2375
21
-7.8875
0
LINE
8
0
10
126.8125
20
-26.9375
11
111.3125
21
-26.9375
0
LINE
8
0
10
111.3125
20
-26.9375
11
111.3125
21
-39.7375
0
LINE
8
0
10
111.3125
20
-39.7375
11
126.8125
21
-39.7375
0
LINE
8
0
10
126.8125
20
-39.7375
11
126.8125
21
-26.9375
0
LINE
8
0
10
107.7625
20
-26.9375
11
92.2625
21
-26.9375
0
LINE
8
0
10
92.2625
20
-26.9375
11
92.2625
21
-39.7375
0
LINE
8
0
10
92.2625
20
-39.7375
11
107.7625
21
-39.7375
0
LINE
8
0
10
107.7625
20
-39.7375
11
107.7625
21
-26.9375
0
LINE
8
0
10
112.525
20
-45.9875
11
97.025
21
-45.9875
0
LINE
8
0
10
97.025
20
-45.9875
11
97.025
21
-58.7875
0
LINE
8
0
10
97.025
20
-58.7875
11
112.525
21
-58.7875
0
LINE
8
0
10
112.525
20
-58.7875
11
112.525
21
-45.9875
0
LINE
8
0
10
93.475
20
-45.9875
11
77.975
21
-45.9875
0
LINE
8
0
10
77.975
20
-45.9875
11
77.975
21
-58.7875
0
LINE
8
0
10
77.975
20
-58.7875
11
93.475
21
-58.7875
0
LINE
8
0
10
93.475
20
-58.7875
11
93.475
21
-45.9875
0
LINE
8
0
10
83.95
20
-65.0375
11
68.45
21
-65.0375
0
LINE
8
0
10
68.45
20
-65.0375
11
68.45
21
-77.8375
0
LINE
8
0
10
68.45
20
-77.8375
11
83.95
21
-77.8375
0
LINE
8
0
10
83.95
20
-77.8375
11
83.95
21
-65.0375
0
LINE
8
0
10
79.1875
20
-84.0875
11
63.6875
21
-84.0875
0
LINE
8
0
10
63.6875
20
-84.0875
11
63.6875
21
-96.8875
0
LINE
8
0
10
63.6875
20
-96.8875
11
79.1875
21
-96.8875
0
LINE
8
0
10
79.1875
20
-96.8875
11
79.1875
21
-84.0875
0
LINE
8
0
10
79.1875
20
-7.8875
11
63.6875
21
-7.8875
0
LINE
8
0
10
63.6875
20
-7.8875
11
63.6875
21
-20.6875
0
LINE
8
0
10
63.6875
20
-20.6875
11
79.1875
21
-20.6875
0
LINE
8
0
10
79.1875
20
-20.6875
11
79.1875
21
-7.8875
0
LINE
8
0
10
60.1375
20
-7.8875
11
44.6375
21
-7.8875
0
LINE
8
0
10
44.6375
20
-7.8875
11
44.6375
21
-20.6875
0
LINE
8
0
10
44.6375
20
-20.6875
11
60.1375
21
-20.6875
0
LINE
8
0
10
60.1375
20
-20.6875
11
60.1375
21
-7.8875
0
LINE
8
0
10
88.7125
20
-26.9375
11
73.2125
21
-26.9375
0
LINE
8
0
10
73.2125
20
-26.9375
11
73.2125
21
-39.7375
0
LINE
8
0
10
73.2125
20
-39.7375
11
88.7125
21
-39.7375
0
LINE
8
0
10
88.7125
20
-39.7375
11
88.7125
21
-26.9375
0
LINE
8
0
10
69.6625
20
-26.9375
11
54.1625
21
-26.9375
0
LINE
8
0
10
54.1625
20
-26.9375
11
54.1625
21
-39.7375
0
LINE
8
0
10
54.1625
20
-39.7375
11
69.6625
21
-39.7375
0
LINE
8
0
10
69.6625
20
-39.7375
11
69.6625
21
-26.9375
0
LINE
8
0
10
74.425
20
-45.9875
11
58.925
21
-45.9875
0
LINE
8
0
10
58.925
20
-45.9875
11
58.925
21
-58.7875
0
LINE
8
0
10
58.925
20
-58.7875
11
74.425
21
-58.7875
0
LINE
8
0
10
74.425
20
-58.7875
11
74.425
21
-45.9875
0
LINE
8
0
10
64.9
20
-65.0375
11
49.4
21
-65.0375
0
LINE
8
0
10
49.4
20
-65.0375
11
49.4
21
-77.8375
0
LINE
8
0
10
49.4
20
-77.8375
11
64.9
21
-77.8375
0
LINE
8
0
10
64.9
20
-77.8375
11
64.9
21
-65.0375
0
LINE
8
0
10
52.9937
20
-84.0875
11
37.4937
21
-84.0875
0
LINE
8
0
10
37.4937
20
-84.0875
11
37.4937
21
-96.8875
0
LINE
8
0
10
37.4937
20
-96.8875
11
52.9937
21
-96.8875
0
LINE
8
0
10
52.9937
20
-96.8875
11
52.9937
21
-84.0875
0
LINE
8
0
10
41.0875
20
-7.8875
11
25.5875
21
-7.8875
0
LINE
8
0
10
25.5875
20
-7.8875
11
25.5875
21
-20.6875
0
LINE
8
0
10
25.5875
20
-20.6875
11
41.0875
21
-20.6875
0
LINE
8
0
10
41.0875
20
-20.6875
11
41.0875
21
-7.8875
0
LINE
8
0
10
22.0375
20
-7.8875
11
6.5375
21
-7.8875
0
LINE
8
0
10
6.5375
20
-7.8875
11
6.5375
21
-20.6875
0
LINE
8
0
10
6.5375
20
-20.6875
11
22.0375
21
-20.6875
0
LINE
8
0
10
22.0375
20
-20.6875
11
22.0375
21
-7.8875
0
LINE
8
0
10
50.6125
20
-26.9375
11
35.1125
21
-26.9375
0
LINE
8
0
10
35.1125
20
-26.9375
11
35.1125
21
-39.7375
0
LINE
8
0
10
35.1125
20
-39.7375
11
50.6125
21
-39.7375
0
LINE
8
0
10
50.6125
20
-39.7375
11
50.6125
21
-26.9375
0
LINE
8
0
10
26.8
20
-26.9375
11
11.3
21
-26.9375
0
LINE
8
0
10
11.3
20
-26.9375
11
11.3
21
-39.7375
0
LINE
8
0
10
11.3
20
-39.7375
11
26.8
21
-39.7375
0
LINE
8
0
10
26.8
20
-39.7375
11
26.8
21
-26.9375
0
LINE
8
0
10
55.375
20
-45.9875
11
39.875
21
-45.9875
0
LINE
8
0
10
39.875
20
-45.9875
11
39.875
21
-58.7875
0
LINE
8
0
10
39.875
20
-58.7875
11
55.375
21
-58.7875
0
LINE
8
0
10
55.375
20
-58.7875
11
55.375
21
-45.9875
0
LINE
8
0
10
29.18125
20
-45.9875
11
13.68125
21
-45.9875
0
LINE
8
0
10
13.68125
20
-45.9875
11
13.68125
21
-58.7875
0
LINE
8
0
10
13.68125
20
-58.7875
11
29.18125
21
-58.7875
0
LINE
8
0
10
29.18125
20
-58.7875
11
29.18125
21
-45.9875
0
LINE
8
0
10
26.8
20
-84.0875
11
11.3
21
-84.0875
0
LINE
8
0
10
11.3
20
-84.0875
11
11.3
21
-96.8875
0
LINE
8
0
10
11.3
20
-96.8875
11
26.8
21
-96.8875
0
LINE
8
0
10
26.8
20
-96.8875
11
26.8
21
-84.0875
0
LINE
8
0
10
260.1625
20
-26.9375
11
244.6625
21
-26.9375
0
LINE
8
0
10
244.6625
20
-26.9375
11
244.6625
21
-39.7375
0
LINE
8
0
10
244.6625
20
-39.7375
11
260.1625
21
-39.7375
0
LINE
8
0
10
260.1625
20
-39.7375
11
260.1625
21
-26.9375
0
LINE
8
0
10
283.975
20
-26.9375
11
268.475
21
-26.9375
0
LINE
8
0
10
268.475
20
-26.9375
11
268.475
21
-39.7375
0
LINE
8
0
10
268.475
20
-39.7375
11
283.975
21
-39.7375
0
LINE
8
0
10
283.975
20
-39.7375
11
283.975
21
-26.9375
0
LINE
8
0
10
283.975
20
-84.0875
11
268.475
21
-84.0875
0
LINE
8
0
10
268.475
20
-84.0875
11
268.475
21
-96.8875
0
LINE
8
0
10
268.475
20
-96.8875
11
283.975
21
-96.8875
0
LINE
8
0
10
283.975
20
-96.8875
11
283.975
21
-84.0875
0
LINE
8
0
10
250.6375
20
-7.8875
11
235.1375
21
-7.8875
0
LINE
8
0
10
235.1375
20
-7.8875
11
235.1375
21
-20.6875
0
LINE
8
0
10
235.1375
20
-20.6875
11
250.6375
21
-20.6875
0
LINE
8
0
10
250.6375
20
-20.6875
11
250.6375
21
-7.8875
0
LINE
8
0
10
241.1125
20
-26.9375
11
225.6125
21
-26.9375
0
LINE
8
0
10
225.6125
20
-26.9375
11
225.6125
21
-39.7375
0
LINE
8
0
10
225.6125
20
-39.7375
11
241.1125
21
-39.7375
0
LINE
8
0
10
241.1125
20
-39.7375
11
241.1125
21
-26.9375
0
LINE
8
0
10
222.0625
20
-26.9375
11
206.5625
21
-26.9375
0
LINE
8
0
10
206.5625
20
-26.9375
11
206.5625
21
-39.7375
0
LINE
8
0
10
206.5625
20
-39.7375
11
222.0625
21
-39.7375
0
LINE
8
0
10
222.0625
20
-39.7375
11
222.0625
21
-26.9375
0
LINE
8
0
10
245.875
20
-45.9875
11
230.375
21
-45.9875
0
LINE
8
0
10
230.375
20
-45.9875
11
230.375
21
-58.7875
0
LINE
8
0
10
230.375
20
-58.7875
11
245.875
21
-58.7875
0
LINE
8
0
10
245.875
20
-58.7875
11
245.875
21
-45.9875
0
LINE
8
0
10
226.825
20
-45.9875
11
211.325
21
-45.9875
0
LINE
8
0
10
211.325
20
-45.9875
11
211.325
21
-58.7875
0
LINE
8
0
10
211.325
20
-58.7875
11
226.825
21
-58.7875
0
LINE
8
0
10
226.825
20
-58.7875
11
226.825
21
-45.9875
0
LINE
8
0
10
236.35
20
-65.0375
11
220.85
21
-65.0375
0
LINE
8
0
10
220.85
20
-65.0375
11
220.85
21
-77.8375
0
LINE
8
0
10
220.85
20
-77.8375
11
236.35
21
-77.8375
0
LINE
8
0
10
236.35
20
-77.8375
11
236.35
21
-65.0375
0
LINE
8
0
10
217.3
20
-65.0375
11
201.8
21
-65.0375
0
LINE
8
0
10
201.8
20
-65.0375
11
201.8
21
-77.8375
0
LINE
8
0
10
201.8
20
-77.8375
11
217.3
21
-77.8375
0
LINE
8
0
10
217.3
20
-77.8375
11
217.3
21
-65.0375
0
LINE
8
0
10
257.78125
20
-84.0875
11
242.28125
21
-84.0875
0
LINE
8
0
10
242.28125
20
-84.0875
11
242.28125
21
-96.8875
0
LINE
8
0
10
242.28125
20
-96.8875
11
257.78125
21
-96.8875
0
LINE
8
0
10
257.78125
20
-96.8875
11
257.78125
21
-84.0875
0
LINE
8
0
10
231.5875
20
-7.8875
11
216.0875
21
-7.8875
0
LINE
8
0
10
216.0875
20
-7.8875
11
216.0875
21
-20.6875
0
LINE
8
0
10
216.0875
20
-20.6875
11
231.5875
21
-20.6875
0
LINE
8
0
10
231.5875
20
-20.6875
11
231.5875
21
-7.8875
0
LINE
8
0
10
212.5375
20
-7.8875
11
197.0375
21
-7.8875
0
LINE
8
0
10
197.0375
20
-7.8875
11
197.0375
21
-20.6875
0
LINE
8
0
10
197.0375
20
-20.6875
11
212.5375
21
-20.6875
0
LINE
8
0
10
212.5375
20
-20.6875
11
212.5375
21
-7.8875
0
LINE
8
0
10
203.0125
20
-26.9375
11
187.5125
21
-26.9375
0
LINE
8
0
10
187.5125
20
-26.9375
11
187.5125
21
-39.7375
0
LINE
8
0
10
187.5125
20
-39.7375
11
203.0125
21
-39.7375
0
LINE
8
0
10
203.0125
20
-39.7375
11
203.0125
21
-26.9375
0
LINE
8
0
10
207.775
20
-45.9875
11
192.275
21
-45.9875
0
LINE
8
0
10
192.275
20
-45.9875
11
192.275
21
-58.7875
0
LINE
8
0
10
192.275
20
-58.7875
11
207.775
21
-58.7875
0
LINE
8
0
10
207.775
20
-58.7875
11
207.775
21
-45.9875
0
LINE
8
0
10
188.725
20
-45.9875
11
173.225
21
-45.9875
0
LINE
8
0
10
173.225
20
-45.9875
11
173.225
21
-58.7875
0
LINE
8
0
10
173.225
20
-58.7875
11
188.725
21
-58.7875
0
LINE
8
0
10
188.725
20
-58.7875
11
188.725
21
-45.9875
0
LINE
8
0
10
198.25
20
-65.0375
11
182.75
21
-65.0375
0
LINE
8
0
10
182.75
20
-65.0375
11
182.75
21
-77.8375
0
LINE
8
0
10
182.75
20
-77.8375
11
198.25
21
-77.8375
0
LINE
8
0
10
198.25
20
-77.8375
11
198.25
21
-65.0375
0
LINE
8
0
10
179.2
20
-65.0375
11
163.7
21
-65.0375
0
LINE
8
0
10
163.7
20
-65.0375
11
163.7
21
-77.8375
0
LINE
8
0
10
163.7
20
-77.8375
11
179.2
21
-77.8375
0
LINE
8
0
10
179.2
20
-77.8375
11
179.2
21
-65.0375
0
LINE
8
0
10
231.5875
20
-84.0875
11
216.0875
21
-84.0875
0
LINE
8
0
10
216.0875
20
-84.0875
11
216.0875
21
-96.8875
0
LINE
8
0
10
216.0875
20
-96.8875
11
231.5875
21
-96.8875
0
LINE
8
0
10
231.5875
20
-96.8875
11
231.5875
21
-84.0875
0
LINE
8
0
10
244.01875
20
-75.3375
11
244.01875
21
-80.4375
0
LINE
8
0
10
244.01875
20
-80.4375
11
241.41875
21
-80.4375
0
LINE
8
0
10
241.41875
20
-80.4375
11
241.41875
21
-75.3375
0
LINE
8
0
10
241.41875
20
-75.3375
11
244.01875
21
-75.3375
0
LINE
8
0
10
284.61875
20
-75.3375
11
284.61875
21
-80.4375
0
LINE
8
0
10
284.61875
20
-80.4375
11
287.21875
21
-80.4375
0
LINE
8
0
10
287.21875
20
-80.4375
11
287.21875
21
-75.3375
0
LINE
8
0
10
287.21875
20
-75.3375
11
284.61875
21
-75.3375
0
LINE
8
0
10
272.06875
20
-65.0375
11
256.56875
21
-65.0375
0
LINE
8
0
10
256.56875
20
-65.0375
11
256.56875
21
-77.8375
0
LINE
8
0
10
256.56875
20
-77.8375
11
272.06875
21
-77.8375
0
LINE
8
0
10
272.06875
20
-77.8375
11
272.06875
21
-65.0375
0
TEXT
8
Cmts
62
1
10
303.847897
20
-52.73062
1
95.000 mm 
40
1.5
41
1.5
50
270.186984
7
SIMPLEX
72
1
73
2
11
303.847897
21
-52.73062
0
LINE
8
Cmts
62
1
10
287.34
20
-100.28
11
305.35289
21
-100.221215
0
LINE
8
Cmts
62
1
10
287.03
20
-5.29
11
305.04289
21
-5.231215
0
LINE
8
Cmts
62
1
10
302.342904
20
-5.240026
11
302.652904
21
-100.230026
0
LINE
8
Cmts
62
1
10
302.652904
20
-100.230026
11
302.06281
21
-99.105442
0
LINE
8
Cmts
62
1
10
302.652904
20
-100.230026
11
303.235645
21
-99.101614
0
LINE
8
Cmts
62
1
10
302.342904
20
-5.240026
11
301.760163
21
-6.368438
0
LINE
8
Cmts
62
1
10
302.342904
20
-5.240026
11
302.932998
21
-6.36461
0
TEXT
8
Cmts
62
1
10
17.92
20
-43.7
1
25.6125 mm 
40
1.5
41
1.5
7
SIMPLEX
72
1
73
2
11
17.92
21
-43.7
0
LINE
8
Cmts
62
1
10
30.71
20
-33.34
11
30.71
21
-45.05
0
LINE
8
Cmts
62
1
10
5.13
20
-33.34
11
5.13
21
-45.05
0
LINE
8
Cmts
62
1
10
5.13
20
-42.35
11
30.71
21
-42.35
0
LINE
8
Cmts
62
1
10
30.71
20
-42.35
11
29.583496
21
-42.936421
0
LINE
8
Cmts
62
1
10
30.71
20
-42.35
11
29.583496
21
-41.763579
0
LINE
8
Cmts
62
1
10
5.13
20
-42.35
11
6.256504
21
-42.936421
0
LINE
8
Cmts
62
1
10
5.13
20
-42.35
11
6.256504
21
-41.763579
0
TEXT
8
Cmts
62
1
10
277.347461
20
-39.634741
1
25.6125 mm 
40
1.5
41
1.5
50
0.022425
7
SIMPLEX
72
1
73
2
11
277.347461
21
-39.634741
0
LINE
8
Cmts
62
1
10
290.12
20
-33.34
11
290.12299
21
-40.979741
0
LINE
8
Cmts
62
1
10
264.57
20
-33.35
11
264.57299
21
-40.989741
0
LINE
8
Cmts
62
1
10
264.571933
20
-38.289741
11
290.121933
21
-38.279741
0
LINE
8
Cmts
62
1
10
290.121933
20
-38.279741
11
288.995659
21
-38.866603
0
LINE
8
Cmts
62
1
10
290.121933
20
-38.279741
11
288.9952
21
-37.693761
0
LINE
8
Cmts
62
1
10
264.571933
20
-38.289741
11
265.698666
21
-38.875721
0
LINE
8
Cmts
62
1
10
264.571933
20
-38.289741
11
265.698207
21
-37.702879
0
TEXT
8
Cmts
62
1
10
202.7
20
-90.49
1
6.300 mm 
40
1.5
41
1.5
50
270.0
7
SIMPLEX
72
1
73
2
11
202.7
21
-90.49
0
LINE
8
Cmts
62
1
10
195.44
20
-93.64
11
204.05
21
-93.64
0
LINE
8
Cmts
62
1
10
195.44
20
-87.34
11
204.05
21
-87.34
0
LINE
8
Cmts
62
1
10
201.35
20
-87.34
11
201.35
21
-93.64
0
LINE
8
Cmts
62
1
10
201.35
20
-93.64
11
200.763579
21
-92.513496
0
LINE
8
Cmts
62
1
10
201.35
20
-93.64
11
201.936421
21
-92.513496
0
LINE
8
Cmts
62
1
10
201.35
20
-87.34
11
200.763579
21
-88.466504
0
LINE
8
Cmts
62
1
10
201.35
20
-87.34
11
201.936421
21
-88.466504
0
TEXT
8
Cmts
62
1
10
258.43468
20
-33.349763
1
6.300 mm 
40
1.5
41
1.5
50
270.090946
7
SIMPLEX
72
1
73
2
11
258.43468
21
-33.349763
0
LINE
8
Cmts
62
1
10
264.59
20
-36.49
11
257.089682
21
-36.501906
0
LINE
8
Cmts
62
1
10
264.58
20
-30.19
11
257.079682
21
-30.201906
0
LINE
8
Cmts
62
1
10
259.779679
20
-30.19762
11
259.789679
21
-36.49762
0
LINE
8
Cmts
62
1
10
259.789679
20
-36.49762
11
259.201471
21
-35.372048
0
LINE
8
Cmts
62
1
10
259.789679
20
-36.49762
11
260.374311
21
-35.370187
0
LINE
8
Cmts
62
1
10
259.779679
20
-30.19762
11
259.195047
21
-31.325053
0
LINE
8
Cmts
62
1
10
259.779679
20
-30.19762
11
260.367887
21
-31.323192
0
TEXT
8
Cmts
62
1
10
24.47
20
-33.33
1
6.300 mm 
40
1.5
41
1.5
50
270.0
7
SIMPLEX
72
1
73
2
11
24.47
21
-33.33
0
LINE
8
Cmts
62
1
10
30.72
20
-36.48
11
23.12
21
-36.48
0
LINE
8
Cmts
62
1
10
30.72
20
-30.18
11
23.12
21
-30.18
0
LINE
8
Cmts
62
1
10
25.82
20
-30.18
11
25.82
21
-36.48
0
LINE
8
Cmts
62
1
10
25.82
20
-36.48
11
25.233579
21
-35.353496
0
LINE
8
Cmts
62
1
10
25.82
20
-36.48
11
26.406421
21
-35.353496
0
LINE
8
Cmts
62
1
10
25.82
20
-30.18
11
25.233579
21
-31.306504
0
LINE
8
Cmts
62
1
10
25.82
20
-30.18
11
26.406421
21
-31.306504
0
TEXT
8
Cmts
62
1
10
103.46
20
-90.49
1
6.300 mm 
40
1.5
41
1.5
50
270.0
7
SIMPLEX
72
1
73
2
11
103.46
21
-90.49
0
LINE
8
Cmts
62
1
10
109.64
20
-93.64
11
102.11
21
-93.64
0
LINE
8
Cmts
62
1
10
109.64
20
-87.34
11
102.11
21
-87.34
0
LINE
8
Cmts
62
1
10
104.81
20
-87.34
11
104.81
21
-93.64
0
LINE
8
Cmts
62
1
10
104.81
20
-93.64
11
104.223579
21
-92.513496
0
LINE
8
Cmts
62
1
10
104.81
20
-93.64
11
105.396421
21
-92.513496
0
LINE
8
Cmts
62
1
10
104.81
20
-87.34
11
104.223579
21
-88.466504
0
LINE
8
Cmts
62
1
10
104.81
20
-87.34
11
105.396421
21
-88.466504
0
TEXT
8
Cmts
62
1
10
171.54
20
-78.67
1
47.800 mm 
40
1.5
41
1.5
7
SIMPLEX
72
1
73
2
11
171.54
21
-78.67
0
LINE
8
Cmts
62
1
10
147.64
20
-90.49
11
147.64
21
-77.32
0
LINE
8
Cmts
62
1
10
195.44
20
-90.49
11
195.44
21
-77.32
0
LINE
8
Cmts
62
1
10
195.44
20
-80.02
11
147.64
21
-80.02
0
LINE
8
Cmts
62
1
10
147.64
20
-80.02
11
148.766504
21
-79.433579
0
LINE
8
Cmts
62
1
10
147.64
20
-80.02
11
148.766504
21
-80.606421
0
LINE
8
Cmts
62
1
10
195.44
20
-80.02
11
194.313496
21
-79.433579
0
LINE
8
Cmts
62
1
10
195.44
20
-80.02
11
194.313496
21
-80.606421
0
TEXT
8
Cmts
62
1
10
128.64
20
-109.43
1
38.000 mm 
40
1.5
41
1.5
7
SIMPLEX
72
1
73
2
11
128.64
21
-109.43
0
LINE
8
Cmts
62
1
10
109.64
20
-90.48
11
109.64
21
-110.78
0
LINE
8
Cmts
62
1
10
147.64
20
-90.48
11
147.64
21
-110.78
0
LINE
8
Cmts
62
1
10
147.64
20
-108.08
11
109.64
21
-108.08
0
LINE
8
Cmts
62
1
10
109.64
20
-108.08
11
110.766504
21
-107.493579
0
LINE
8
Cmts
62
1
10
109.64
20
-108.08
11
110.766504
21
-108.666421
0
LINE
8
Cmts
62
1
10
147.64
20
-108.08
11
146.513496
21
-107.493579
0
LINE
8
Cmts
62
1
10
147.64
20
-108.08
11
146.513496
21
-108.666421
0
TEXT
8
Cmts
62
1
10
197.96
20
-99.88
1
0.800 mm 
40
1.5
41
1.5
50
270.0
7
SIMPLEX
72
1
73
2
11
197.96
21
-99.88
0
LINE
8
Cmts
62
1
10
194.38
20
-100.28
11
199.31
21
-100.28
0
LINE
8
Cmts
62
1
10
194.38
20
-99.48
11
199.31
21
-99.48
0
LINE
8
Cmts
62
1
10
196.61
20
-99.48
11
196.61
21
-100.28
0
LINE
8
Cmts
62
1
10
196.61
20
-100.28
11
196.023579
21
-99.153496
0
LINE
8
Cmts
62
1
10
196.61
20
-100.28
11
197.196421
21
-99.153496
0
LINE
8
Cmts
62
1
10
196.61
20
-99.48
11
196.023579
21
-100.606504
0
LINE
8
Cmts
62
1
10
196.61
20
-99.48
11
197.196421
21
-100.606504
0
TEXT
8
Cmts
62
1
10
188.875133
20
-92.417616
1
3.900 mm 
40
1.5
41
1.5
50
89.559272
7
SIMPLEX
72
1
73
2
11
188.875133
21
-92.417616
0
LINE
8
Cmts
62
1
10
191.77
20
-94.39
11
187.510173
21
-94.357232
0
LINE
8
Cmts
62
1
10
191.8
20
-90.49
11
187.540173
21
-90.457232
0
LINE
8
Cmts
62
1
10
190.240093
20
-90.478001
11
190.210093
21
-94.378001
0
LINE
8
Cmts
62
1
10
190.210093
20
-94.378001
11
189.632355
21
-93.24702
0
LINE
8
Cmts
62
1
10
190.210093
20
-94.378001
11
190.805162
21
-93.256041
0
LINE
8
Cmts
62
1
10
190.240093
20
-90.478001
11
189.645024
21
-91.599961
0
LINE
8
Cmts
62
1
10
190.240093
20
-90.478001
11
190.817831
21
-91.608982
0
TEXT
8
Cmts
62
1
10
159.664849
20
-87.283312
1
6.400 mm 
40
1.5
41
1.5
50
270.089525
7
SIMPLEX
72
1
73
2
11
159.664849
21
-87.283312
0
LINE
8
Cmts
62
1
10
155.38
20
-84.09
11
161.009848
21
-84.081203
0
LINE
8
Cmts
62
1
10
155.39
20
-90.49
11
161.019848
21
-90.481203
0
LINE
8
Cmts
62
1
10
158.319851
20
-90.485422
11
158.309851
21
-84.085422
0
LINE
8
Cmts
62
1
10
158.309851
20
-84.085422
11
158.898031
21
-85.211008
0
LINE
8
Cmts
62
1
10
158.309851
20
-84.085422
11
157.725191
21
-85.212841
0
LINE
8
Cmts
62
1
10
158.319851
20
-90.485422
11
158.904511
21
-89.358003
0
LINE
8
Cmts
62
1
10
158.319851
20
-90.485422
11
157.731671
21
-89.359836
0
LINE
8
Cmts
62
1
10
109.67
20
-90.4875
11
195.48
21
-90.4875
0
TEXT
8
Cmts
62
1
10
147.64
20
-117.98
1
88.300 mm 
40
1.5
41
1.5
7
SIMPLEX
72
1
73
2
11
147.64
21
-117.98
0
LINE
8
Cmts
62
1
10
191.79
20
-99.49
11
191.79
21
-119.33
0
LINE
8
Cmts
62
1
10
103.49
20
-99.49
11
103.49
21
-119.33
0
LINE
8
Cmts
62
1
10
103.49
20
-116.63
11
191.79
21
-116.63
0
LINE
8
Cmts
62
1
10
191.79
20
-116.63
11
190.663496
21
-117.216421
0
LINE
8
Cmts
62
1
10
191.79
20
-116.63
11
190.663496
21
-116.043579
0
LINE
8
Cmts
62
1
10
103.49
20
-116.63
11
104.616504
21
-117.216421
0
LINE
8
Cmts
62
1
10
103.49
20
-116.63
11
104.616504
21
-116.043579
0
TEXT
8
Cmts
62
1
10
102.19
20
-104.41
1
2.600 mm 
40
1.5
41
1.5
7
SIMPLEX
72
1
73
2
11
102.19
21
-104.41
0
LINE
8
Cmts
62
1
10
103.49
20
-99.49
11
103.49
21
-105.76
0
LINE
8
Cmts
62
1
10
100.89
20
-99.49
11
100.89
21
-105.76
0
LINE
8
Cmts
62
1
10
100.89
20
-103.06
11
103.49
21
-103.06
0
LINE
8
Cmts
62
1
10
103.49
20
-103.06
11
102.363496
21
-103.646421
0
LINE
8
Cmts
62
1
10
103.49
20
-103.06
11
102.363496
21
-102.473579
0
LINE
8
Cmts
62
1
10
100.89
20
-103.06
11
102.016504
21
-103.646421
0
LINE
8
Cmts
62
1
10
100.89
20
-103.06
11
102.016504
21
-102.473579
0
TEXT
8
Cmts
62
1
10
97.67
20
-96.94
1
5.100 mm 
40
1.5
41
1.5
50
270.0
7
SIMPLEX
72
1
73
2
11
97.67
21
-96.94
0
LINE
8
Cmts
62
1
10
100.89
20
-99.49
11
96.32
21
-99.49
0
LINE
8
Cmts
62
1
10
100.89
20
-94.39
11
96.32
21
-94.39
0
LINE
8
Cmts
62
1
10
99.02
20
-94.39
11
99.02
21
-99.49
0
LINE
8
Cmts
62
1
10
99.02
20
-99.49
11
98.433579
21
-98.363496
0
LINE
8
Cmts
62
1
10
99.02
20
-99.49
11
99.606421
21
-98.363496
0
LINE
8
Cmts
62
1
10
99.02
20
-94.39
11
98.433579
21
-95.516504
0
LINE
8
Cmts
62
1
10
99.02
20
-94.39
11
99.606421
21
-95.516504
0
TEXT
8
Cmts
62
1
10
109.63
20
-81.13
1
14.500 mm 
40
1.5
41
1.5
7
SIMPLEX
72
1
73
2
11
109.63
21
-81.13
0
LINE
8
Cmts
62
1
10
102.38
20
-89.28
11
102.38
21
-79.78
0
LINE
8
Cmts
62
1
10
116.88
20
-89.28
11
116.88
21
-79.78
0
LINE
8
Cmts
62
1
10
116.88
20
-82.48
11
102.38
21
-82.48
0
LINE
8
Cmts
62
1
10
102.38
20
-82.48
11
103.506504
21
-81.893579
0
LINE
8
Cmts
62
1
10
102.38
20
-82.48
11
103.506504
21
-83.066421
0
LINE
8
Cmts
62
1
10
116.88
20
-82.48
11
115.753496
21
-81.893579
0
LINE
8
Cmts
62
1
10
116.88
20
-82.48
11
115.753496
21
-83.066421
0
TEXT
8
Cmts
62
1
10
121.803009
20
-90.50045
1
2.400 mm 
40
1.5
41
1.5
50
89.761269
7
SIMPLEX
72
1
73
2
11
121.803009
21
-90.50045
0
LINE
8
Cmts
62
1
10
116.89
20
-91.68
11
123.147997
21
-91.706075
0
LINE
8
Cmts
62
1
10
116.9
20
-89.28
11
123.157997
21
-89.306075
0
LINE
8
Cmts
62
1
10
120.458021
20
-89.294825
11
120.448021
21
-91.694825
0
LINE
8
Cmts
62
1
10
120.448021
20
-91.694825
11
119.866299
21
-90.565888
0
LINE
8
Cmts
62
1
10
120.448021
20
-91.694825
11
121.03913
21
-90.570774
0
LINE
8
Cmts
62
1
10
120.458021
20
-89.294825
11
119.866912
21
-90.418876
0
LINE
8
Cmts
62
1
10
120.458021
20
-89.294825
11
121.039743
21
-90.423762
0
TEXT
8
Cmts
62
1
10
115.69
20
-85.3
1
2.400 mm 
40
1.5
41
1.5
7
SIMPLEX
72
1
73
2
11
115.69
21
-85.3
0
LINE
8
Cmts
62
1
10
116.89
20
-89.28
11
116.89
21
-83.95
0
LINE
8
Cmts
62
1
10
114.49
20
-89.28
11
114.49
21
-83.95
0
LINE
8
Cmts
62
1
10
114.49
20
-86.65
11
116.89
21
-86.65
0
LINE
8
Cmts
62
1
10
116.89
20
-86.65
11
115.763496
21
-87.236421
0
LINE
8
Cmts
62
1
10
116.89
20
-86.65
11
115.763496
21
-86.063579
0
LINE
8
Cmts
62
1
10
114.49
20
-86.65
11
115.616504
21
-87.236421
0
LINE
8
Cmts
62
1
10
114.49
20
-86.65
11
115.616504
21
-86.063579
0
TEXT
8
Cmts
62
1
10
135.19
20
-90.49
1
12.800 mm 
40
1.5
41
1.5
50
270.0
7
SIMPLEX
72
1
73
2
11
135.19
21
-90.49
0
LINE
8
Cmts
62
1
10
139.89
20
-96.89
11
133.84
21
-96.89
0
LINE
8
Cmts
62
1
10
139.89
20
-84.09
11
133.84
21
-84.09
0
LINE
8
Cmts
62
1
10
136.54
20
-84.09
11
136.54
21
-96.89
0
LINE
8
Cmts
62
1
10
136.54
20
-96.89
11
135.953579
21
-95.763496
0
LINE
8
Cmts
62
1
10
136.54
20
-96.89
11
137.126421
21
-95.763496
0
LINE
8
Cmts
62
1
10
136.54
20
-84.09
11
135.953579
21
-85.216504
0
LINE
8
Cmts
62
1
10
136.54
20
-84.09
11
137.126421
21
-85.216504
0
TEXT
8
Cmts
62
1
10
147.63
20
-105.02
1
15.500 mm 
40
1.5
41
1.5
7
SIMPLEX
72
1
73
2
11
147.63
21
-105.02
0
LINE
8
Cmts
62
1
10
139.88
20
-96.87
11
139.88
21
-106.37
0
LINE
8
Cmts
62
1
10
155.38
20
-96.87
11
155.38
21
-106.37
0
LINE
8
Cmts
62
1
10
155.38
20
-103.67
11
139.88
21
-103.67
0
LINE
8
Cmts
62
1
10
139.88
20
-103.67
11
141.006504
21
-103.083579
0
LINE
8
Cmts
62
1
10
139.88
20
-103.67
11
141.006504
21
-104.256421
0
LINE
8
Cmts
62
1
10
155.38
20
-103.67
11
154.253496
21
-103.083579
0
LINE
8
Cmts
62
1
10
155.38
20
-103.67
11
154.253496
21
-104.256421
0
CIRCLE
8
0
10
30.75
20
-33.3375
40
3.15
0
CIRCLE
8
0
10
195.4375
20
-90.4875
40
3.15
0
CIRCLE
8
0
10
264.525
20
-33.3375
40
3.15
0
LINE
8
0
10
290.1375
20
-7.7875
11
290.1375
21
-58.7125
0
LINE
8
0
10
288.3375
20
-58.7125
11
290.1375
21
-58.7125
0
LINE
8
0
10
5.1375
20
-65.0125
11
5.1375
21
-97.7875
0
LINE
8
0
10
288.3375
20
-65.1125
11
290.1375
21
-65.1125
0
LINE
8
0
10
8.7375
20
-65.0125
11
5.1375
21
-65.0125
0
LINE
8
0
10
8.7375
20
-58.8125
11
5.1375
21
-58.8125
0
ARC
8
0
10
8.7375
20
-61.9125
30
0.0
40
3.1
50
-90.0
51
90.0
0
ARC
8
0
10
288.3375
20
-61.9125
30
0.0
40
3.2
50
90.0
51
270.0
0
TEXT
8
Cmts
62
1
10
277.6375
20
6.3625
1
25.000 mm 
40
1.5
41
1.5
7
SIMPLEX
72
1
73
2
11
277.6375
21
6.3625
0
LINE
8
Cmts
62
1
10
265.1375
20
-33.3375
11
265.1375
21
7.7125
0
LINE
8
Cmts
62
1
10
290.1375
20
-33.3375
11
290.1375
21
7.7125
0
LINE
8
Cmts
62
1
10
290.1375
20
5.0125
11
265.1375
21
5.0125
0
LINE
8
Cmts
62
1
10
265.1375
20
5.0125
11
266.264004
21
5.598921
0
LINE
8
Cmts
62
1
10
265.1375
20
5.0125
11
266.264004
21
4.426079
0
LINE
8
Cmts
62
1
10
290.1375
20
5.0125
11
289.010996
21
5.598921
0
LINE
8
Cmts
62
1
10
290.1375
20
5.0125
11
289.010996
21
4.426079
0
TEXT
8
Cmts
62
1
10
147.6375
20
10.875
1
285.000 mm 
40
1.5
41
1.5
7
SIMPLEX
72
1
73
2
11
147.6375
21
10.875
0
LINE
8
Cmts
62
1
10
290.1375
20
-7.14375
11
290.1375
21
12.225
0
LINE
8
Cmts
62
1
10
5.1375
20
-7.14375
11
5.1375
21
12.225
0
LINE
8
Cmts
62
1
10
5.1375
20
9.525
11
290.1375
21
9.525
0
LINE
8
Cmts
62
1
10
290.1375
20
9.525
11
289.010996
21
8.938579
0
LINE
8
Cmts
62
1
10
290.1375
20
9.525
11
289.010996
21
10.111421
0
LINE
8
Cmts
62
1
10
5.1375
20
9.525
11
6.264004
21
8.938579
0
LINE
8
Cmts
62
1
10
5.1375
20
9.525
11
6.264004
21
10.111421
0
ARC
8
0
10
7.6375
20
-97.7875
30
0.0
40
2.5
50
-180.0
51
-90.0
0
ARC
8
0
10
287.6375
20
-97.7875
30
0.0
40
2.5
50
-90.0
51
0.0
0
ARC
8
0
10
287.6375
20
-7.7875
30
0.0
40
2.5
50
0.0
51
90.0
0
ARC
8
0
10
7.6375
20
-7.7875
30
0.0
40
2.5
50
90.0
51
180.0
0
LINE
8
0
10
290.1375
20
-97.7875
11
290.1375
21
-65.1125
0
LINE
8
0
10
7.6375
20
-100.2875
11
287.6375
21
-100.2875
0
LINE
8
0
10
5.1375
20
-7.7875
11
5.1375
21
-58.8125
0
LINE
8
0
10
7.6375
20
-5.2875
11
287.6375
21
-5.2875
0
ENDSEC
0
EOF